Fade to Black - Metallica Solo

(/) Slide Up  (\) Slide Down  (h) Hammer On  (p) Pull Off  (b) Bend (r) Release (v) Vibrato

E|-----------------------------------------------------------------------------------------
B|-------7---7-8\10-8-10/12\10-8-10-12p10\8\7-8-7---7-8-7---7---------------------8p7-8-10-
G|-----7------------------------------------------9-------9---9-7---------7p6-7p6----------
D|-7\9-----9------------------------------------------------------7-7/9-9------------------
A|-----------------------------------------------------------------------------------------
E|-----------------------------------------------------------------------------------------



E|----14-17p14-------15p14------------------------------------------------------------------------
B|-15----------15----------15----17-15-14---------------------------------------14-15-14h15p14----
G|----------------16----------14----------16-14-14b16-14v-14h16-----------14-16----------------16-
D|--------------------------------------------------------------14v-14-16-------------------------
A|------------------------------------------------------------------------------------------------
E|------------------------------------------------------------------------------------------------



E|----------19-17-15-15-17-14-------14-15-14-------14-15-14----17-15-14v-------------------------
B|-14-15-14-------------------15-------------15-------------15-----------------------------------
G|-------------------------------16-------------14-----------------------------------------12-14-
D|--------------------------------------------------------------------------------12-14-15-------
A|-----------------------------------------------------------------------12-14-15----------------
E|-----------------------------------------------------------------------------------------------



E|-------------12-13-15-12h13p12----15\17v-
B|-12-12-13-15-------------------15--------
G|-----------------------------------------
D|-----------------------------------------
A|-----------------------------------------
E|-----------------------------------------
http://www.guitartabcreator.com
Guitar Tab Creator is intended to store guitar tab created through the tool. It currently does not support in-line text editing. Any text you place in here will be lost. If you need to comment on your tab, please use the "Tab Notes" section located below.