Every Rose Solo - Poison

(/) Slide Up  (\) Slide Down  (h) Hammer On  (p) Pull Off  (b) Bend (r) Release (v) Vibrato


E|--------------------------------------------------------------15b15v----------
B|----------15b15v--------------------------13p12-----------------------12b12v--
G|--14b16v------------------12--14--12-------------12v--14b16v------------------
D|------------------12--14--------------14--------------------------------------
A|------------------------------------------------------------------------------
E|------------------------------------------------------------------------------



E|---------------------------------------------------------------------------------------------------
B|---------12v--13--12--13--12--13-----15------15b15--12--13--12------12-----------------------------
G|----------------------------------14b16--12---------------------14------14--12--14--12--11--12-----
D|--14b16--------------------------------------------------------------------------------------------
A|---------------------------------------------------------------------------------------------------
E|---------------------------------------------------------------------------------------------------



E|--------------------------------------------15---------15-------------------------
B|-------------------------------------15b17------15b17-----------------------------
G|--11----------9\11v--10\12v--------------------------------9\11v--10\12v----------
D|------12\14v-----------------12\14v---------------------------------------12\14v--
A|----------------------------------------------------------------------------------
E|----------------------------------------------------------------------------------



E|--15h17--15------15h19h17--15------15h19h17--15-------------
B|-------------17----------------17----------------17--17\20--
G|------------------------------------------------------------
D|------------------------------------------------------------
A|------------------------------------------------------------
E|------------------------------------------------------------
http://www.guitartabcreator.com
Guitar Tab Creator is intended to store guitar tab created through the tool. It currently does not support in-line text editing. Any text you place in here will be lost. If you need to comment on your tab, please use the "Tab Notes" section located below.