Everlong - Foo Fighters

(/) Slide Up  (\) Slide Down  (h) Hammer On  (p) Pull Off  (b) Bend (r) Release (v) Vibrato


E|---------------------0------------------0---------------------------
B|---------------------0------------------0---------------------------
G|---------------------0--9---9---11--9---0--6--7--9--11\12-11--------
D|--11--11--7--11--11--0--11--11--11--11--0---------------------------
A|--9---9---5--9---9---0------------------0--4--5--7--9--10\9---7--7--
E|--0---9---5--9---9---0------------------0---------------------7--7--



E|--------------------------
B|--------------------------
G|--------------------------
D|--------------------------
A|--9--5--0--9--5--0--7--5--
E|--9--5--0--9--5--0--7--5--
http://www.guitartabcreator.com
Guitar Tab Creator is intended to store guitar tab created through the tool. It currently does not support in-line text editing. Any text you place in here will be lost. If you need to comment on your tab, please use the "Tab Notes" section located below.