Even Flow - Pearl Jam

(/) Slide Up  (\) Slide Down  (h) Hammer On  (p) Pull Off  (b) Bend (r) Release (v) Vibrato


E|---------------------------------------------------------------------------------------------
B|---------------------------------------------------------------------------------------------
G|---------------------------------------------------------------------------------------------
D|---------------------------------------------------------------------------------------------
A|-------------3p0--5v----------------------3p0--5v-----------------5--3-----------------------
E|--15\3--5/7-----------0--6--5--3--0--5/7-----------0--6--5--3--0--------6--5--3--0--3--5--0--



E|-------------------------------------------------------------------------------------
B|-------5--0--7---------------------5--0--7-------------------------------------------
G|-------5--0--7v--------------------5--0--7v---------------7--5-----------------------
D|--5/7------------6--5---------5/7------------6--5---------------6--5-----------5-----
A|-----------------------8--5v-----------------------8--5v--------------8--5--8-----5--
E|-------------------------------------------------------------------------------------



E|-----------------------------------------------------------------------------0---0--0------------------
B|---------------------5--7------------------------------------------------------------------------------
G|---------------------5--7v-----------------------------------------------------------------------------
D|----------------5/7-----------------------------12--12--10--8--8--8--12--12--10--------10--12--10--12--
A|-------3p0--5v---------------------------3--5v--12--12--8---8--8--8--12--12--10--------10--12--10--12--
E|--5/7-----------------------5/7--0--5/7---------12--12--8---8--8--8--12--12--10--------10--12--10--12--



E|----------------------------------------------------------------
B|-------------------------------------5b5--3-----------7---------
G|--7--7--5--3v--7--7--5v--7--7--5--3----------7--7--5-----7--5v--
D|--7--7---------7--7------7--7----------------7--7---------------
A|----------------------------------------------------------------
E|----------------------------------------------------------------
http://www.guitartabcreator.com
Guitar Tab Creator is intended to store guitar tab created through the tool. It currently does not support in-line text editing. Any text you place in here will be lost. If you need to comment on your tab, please use the "Tab Notes" section located below.