Estranged - GNR

(/) Slide Up  (\) Slide Down  (h) Hammer On  (p) Pull Off  (b) Bend (r) Release (v) Vibrato


E|--------------------------------------------------------------3--------------
B|--3--3--3--6--3------3------------------3--3--3--6--3------3-----6--3--3-----
G|------------------------5--3--2-------------------------------------------5--
D|---------------------------------5-------------------------------------------
A|-----------------------------------------------------------------------------
E|-----------------21-----------------21-----------------21--------------------



E|--------------------------------------13b15b13v--10-----13------------13---------
B|------------11--15b17b15v---------11-----------------13b15b13b15v--13b15b13b15v--
G|--12b14b12-----------------10\12-------------------------------------------------
D|---------------------------------------------------------------------------------
A|---------------------------------------------------------------------------------
E|---------------------------------------------------------------------------------



E|-----------------------------------13b15b13v--10-----13------------13------------
B|---------11--15b17b15v---------11-----------------13b15b13b15v--13b15b13b15v-----
G|--10\12-----------------10\12----------------------------------------------------
D|---------------------------------------------------------------------------------
A|---------------------------------------------------------------------------------
E|---------------------------------------------------------------------------------



E|--------------------------------------13-------------------------------------------
B|--13b14b13p11--13p11------11v------13b15b13b15v--12b13b12b13b12b13b12b13b12b13b12--
G|----------------------12-----------------------------------------------------------
D|-----------------------------------------------------------------------------------
A|-----------------------------------------------------------------------------------
E|-------------------------------21--------------------------------------------------



E|---------------------------13-------------------------------------------
B|--13p12--13p12p11v------13b15b13b15v--12b13b12b13b12b13b12b13b12--11\3--
G|------------------------------------------------------------------------
D|------------------------------------------------------------------------
A|------------------------------------------------------------------------
E|--------------------21--------------------------------------------------
http://www.guitartabcreator.com
Guitar Tab Creator is intended to store guitar tab created through the tool. It currently does not support in-line text editing. Any text you place in here will be lost. If you need to comment on your tab, please use the "Tab Notes" section located below.