Drain You - Nirvana

(/) Slide Up  (\) Slide Down  (h) Hammer On  (p) Pull Off  (b) Bend (r) Release (v) Vibrato


E|--------------------------
B|--------------------------
G|-----6-----4-----6-----4--
D|--7--6--4--4--7--6--4--4--
A|--7--4--4--2--7--4--4--2--
E|--5-----2-----5-----2-----



E|--------------------------------------------------------------
B|--------------4-----------------------------------------------
G|--9--9--7--7--4--4--4--4--7--7--7--7--4--7--4--7--4-----------
D|--9--9--7--7--4--4--4--4--7--7--7--7--4--7--4--7--4--7--5--4--
A|--7--7--5--5--2--2--2--2--5--5--5--5--2--5--2--5--2--7--5--4--
E|-----------------------------------------------------5--3--2--
http://www.guitartabcreator.com
Guitar Tab Creator is intended to store guitar tab created through the tool. It currently does not support in-line text editing. Any text you place in here will be lost. If you need to comment on your tab, please use the "Tab Notes" section located below.