Don't Stop - Foster The People

(/) Slide Up  (\) Slide Down  (h) Hammer On  (p) Pull Off  (b) Bend (r) Release (v) Vibrato


E|--7--5--5--3--5--
B|--7--5--7--3--5--
G|--8--6--7--4--6--
D|--9--7--7--5--7--
A|--9--7--5--5--7--
E|--7--5-----3--5--



E|--7--5--10--10--5--
B|--7--5--10--12--5--
G|--8--6--11--12--6--
D|--9--7--12--12--7--
A|--9--7--12--10--7--
E|--7--5--10------5--
http://www.guitartabcreator.com
Guitar Tab Creator is intended to store guitar tab created through the tool. It currently does not support in-line text editing. Any text you place in here will be lost. If you need to comment on your tab, please use the "Tab Notes" section located below.