Cherub Rock - Smashing Pumpkins

(/) Slide Up  (\) Slide Down  (h) Hammer On  (p) Pull Off  (b) Bend (r) Release (v) Vibrato
E|----------------------------------------------------------------------------------------
B|----------------------------------------------------------------------------------------
G|--9--9--9--9--13--13--16--16--11/9--13\14--13--11/9--11\9--13/14--13--11\9--7--7--------
D|----------------------------------------------------------------------------7--7--7--7--
A|--7--7--7--7--11--11--14--14--9--7--11-12--11--9--7--9--7--11-12--11--9--7--5--5--7--7--
E|----------------------------------------------------------------------------------5--5--



E|-----------------------------------------------------------------------------------------------
B|-----------------------------------------------------------------------------------------------
G|--13--13\14--13--11--13--13\13--13--11--------------13--13\14--13--11--------------------------
D|----------------------------------------7--7---------------------------7-----5-----7-----5-----
A|--11--11-12--11--9---11--11-12--11--9---5--5--7--7--11--11-12--11--9---5--7--3--5--5--7--3--5--
E|----------------------------------------------5--5------------------------5-----3-----5-----3--



E|-------------------------
B|-------------------------
G|--11\9--13\14--13--11\9--
D|-------------------------
A|--9--7--11-12--11--9--7--
E|-------------------------
http://www.guitartabcreator.com
Guitar Tab Creator is intended to store guitar tab created through the tool. It currently does not support in-line text editing. Any text you place in here will be lost. If you need to comment on your tab, please use the "Tab Notes" section located below.