Breed - Nirvana

(/) Slide Up  (\) Slide Down  (h) Hammer On  (p) Pull Off  (b) Bend (r) Release (v) Vibrato


E|----------------0--0--0--0-----------------------------------------
B|-------------------------------------------------------------------
G|----------------------------11--11--11--11--11--11--11--11---------
D|--4--4--7b8--2--------------11--11--11--11--11--11--11--11--10b11--
A|--4--4--7-8--2-----------------------------------------------------
E|--2--2--5-6--0-----------------------------------------------------



E|--------------------------
B|--------------------------
G|--7--7--------5--5--4--4--
D|--7--7--7--7--5--5--4--4--
A|--5--5--7--7--3--3--2--2--
E|--------5--5--------------
http://www.guitartabcreator.com
Guitar Tab Creator is intended to store guitar tab created through the tool. It currently does not support in-line text editing. Any text you place in here will be lost. If you need to comment on your tab, please use the "Tab Notes" section located below.