Blues Stuff

(/) Slide Up  (\) Slide Down  (h) Hammer On  (p) Pull Off  (b) Bend (r) Release (v) Vibrato


E|--0--0--2---------
B|--0--2--0---------
G|--1--0--2--7--12--
D|--0--2--1--6--11--
A|--2--0--2--7--12--
E|--0---------------



E|-----0--3--0-----0--
B|--3-----------3-----
G|--------------------
D|--------------------
A|--------------------
E|--------------------



E|-------------------------------------------
B|-------3-----3-----3-----3-----------------
G|--2/4-----4-----4-----4-----2--0-----------
D|----------------------------------2--0-----
A|----------------------------------------2--
E|-------------------------------------------



E|----------------------------------------
B|----------------------------------------
G|----------------------------------------
D|----------------------------------------
A|--5--5--5--4--4--4--3--3--3--2--0--1--2b
E|----------------------------------------
http://www.guitartabcreator.com
Guitar Tab Creator is intended to store guitar tab created through the tool. It currently does not support in-line text editing. Any text you place in here will be lost. If you need to comment on your tab, please use the "Tab Notes" section located below.