Banana Pancakes - Jack Johnson

(/) Slide Up  (\) Slide Down  (h) Hammer On  (p) Pull Off  (b) Bend (r) Release (v) Vibrato


E|---------------------------5-------------------------3-------------------------5--
B|---------------------------5-------------------------3-------------------------5--
G|---------------------------5-------------------------4-------------------------5--
D|---------------------------5-------------------------3-------------------------5--
A|-------5-------------------7-------5-----------------5-------5--7--5-----------7--
E|--5\7-----7--5--3--0--3\5--5--5\7-----7--5--3--0--3--3--5\7-----------7--5--0--5--



E|--------------------------3--------3-----5--3--
B|--------------------------3--------3-----5--5--
G|--------------------------4--5--5--4--5--5--3--
D|--------------------------3--4--4--3--4--5--5--
A|--------5-----------------5--5--5--5--5--7--3--
E|--5--7-----7--5--3--0--3--3--------3-----5-----



E|--
B|--
G|--
D|--
A|--
E|--
http://www.guitartabcreator.com
Guitar Tab Creator is intended to store guitar tab created through the tool. It currently does not support in-line text editing. Any text you place in here will be lost. If you need to comment on your tab, please use the "Tab Notes" section located below.