Back in Black - AC/DC

(/) Slide Up  (\) Slide Down  (h) Hammer On  (p) Pull Off  (b) Bend (r) Release (v) Vibrato


E|-----------------3--0-----------------------------------------------------
B|-----3--3--------------3--0-----------3--3--------------------------------
G|-----2--2--2--2--------------2--0-----2--2--2--2--------------------------
D|--2--0--0--2--2--------------------2--0--0--2--2--------------------------
A|--2--------0--0--------------------2--------0--0--------------------------
E|--0--------------------------------0--------------7--4--7--5--7--6--7--7--



E|--------------------------------2--------------2-----------------------------
B|--------------------------------0--3-----------0--3--------------------------
G|--------------------------------0--2--2-----2--0--2--2-----2-----------------
D|--2-----5--2--4--2-----4--2--4--0--0--2-----2--0--0--2-----2--2-----4--2--4--
A|--0--2--2--0--2--0--2--2--0--2--2-----0-----0--2-----0-----0--0--2--2--0--2--
E|-----0--------------0-----------3--------3-----3--------3--------0-----------



E|-----------------3--2--2--2--
B|-----------------0--3--3--3--
G|-----------------0--2--2--2--
D|--2-----4--2--4--0--0--0--0--
A|--0--2--2--0--2--2-----------
E|-----0-----------3-----------



E|--------------------------------------------------
B|--------------------------------------------------
G|--------------------------------------------------
D|--2--7--7--7--7--2--2--2--7--7--7--7-----2-----2--
A|--2--5--5--4--4--2--2--2--5--5--4--4--2--0--2--0--
E|--0--------------0--0--0--------------0-----0-----
http://www.guitartabcreator.com
Guitar Tab Creator is intended to store guitar tab created through the tool. It currently does not support in-line text editing. Any text you place in here will be lost. If you need to comment on your tab, please use the "Tab Notes" section located below.