All Apologies - Nirvana

(/) Slide Up  (\) Slide Down  (h) Hammer On  (p) Pull Off  (b) Bend (r) Release (v) Vibrato

E|--------------------------------------------------------------------------------------------
B|--------------------------------------------------------------------------------------------
G|--------------------------------------------------------------------------------------------
D|-------------------------------------------10\12--12--10--9---------------------------------
A|--9--9--10--9--10\12--12--10--9--9--10--9--------------------9--9--10--9--10\12--12--10--9--
E|--0--0--0---0--0--0---0---0---0--0--0---0--------------------0--0--0---0--0--0---0---0---0--



E|----------------------------------------------------------------------------
B|----------------------------------------------------------------------------
G|----------------------------------------------11--11--9---------------------
D|---------------------------------------------------------12--5--5--5--5--7--
A|--9--9--10--9--10\12--12--10--9--9--9--10--9-----------------5--5--5--5--7--
E|--0--0--0---0--0--0---0---0---0--0--0--0---0-----------------5--5--5--5--7--
http://www.guitartabcreator.com
Guitar Tab Creator is intended to store guitar tab created through the tool. It currently does not support in-line text editing. Any text you place in here will be lost. If you need to comment on your tab, please use the "Tab Notes" section located below.