All Along The Watchtower - Jimi Hendrix

(/) Slide Up  (\) Slide Down  (h) Hammer On  (p) Pull Off  (b) Bend (r) Release (v) Vibrato


E|--6--6--8---8---8---6--6--4--4--4--6--6--8---8---8---6--6--4--4--4--
B|--6--6--8---8---8---6--6--4--4--4--6--6--8---8---8---6--6--4--4--4--
G|--7--7--8---8---8---7--7--5--5--5--7--7--8---8---8---7--7--5--5--5--
D|--8--8--10--10--10--8--8--6--6--6--8--8--10--10--10--8--8--6--6--6--
A|--8--8--10--10--10--8--8--6--6--6--8--8--10--10--10--8--8--6--6--6--
E|--6--6--8---8---8---6--6--4--4--4--6--6--8---8---8---6--6--4--4--4--



E|-------------------------------------------------------------------------------------------------
B|---------11--13b13b13b13b13--11----------------------------------------8h11p8---------11b11v-----
G|--10\12--------------------------12--10b10--8--10v------8--10--10b10v----------8-----------------
D|----------------------------------------------------10----------------------------10-------------
A|-------------------------------------------------------------------------------------------------
E|-------------------------------------------------------------------------------------------------



E|--8---8---6--6--4--4--4--6--6--
B|--8---8---6--6--4--4--4--6--6--
G|--8---8---7--7--5--5--5--7--7--
D|--10--10--8--8--6--6--6--8--8--
A|--10--10--8--8--6--6--6--8--8--
E|--8---8---6--6--4--4--4--6--6--
http://www.guitartabcreator.com
Guitar Tab Creator is intended to store guitar tab created through the tool. It currently does not support in-line text editing. Any text you place in here will be lost. If you need to comment on your tab, please use the "Tab Notes" section located below.