Alive Riff - Pearl Jam

(/) Slide Up  (\) Slide Down  (h) Hammer On  (p) Pull Off  (b) Bend (r) Release (v) Vibrato


E|------------------------------------------------------------
B|------------------------------------------------------------
G|--0--0--2------------------2--2--2--2-----------------0--2--
D|-----0--2-------0h7h9--7v--2--2--2--2--0h7h9v--7h9b7--0--2--
A|--------0--4\9-------------0--0--0--0--------------------0--
E|------------------------------------------------------------



E|--------------------------
B|--------------------------
G|--10--10--10--10--12------
D|--10--10--10--10--12--10--
A|--8---8---8---8---10--10--
E|----------------------8---
http://www.guitartabcreator.com
Guitar Tab Creator is intended to store guitar tab created through the tool. It currently does not support in-line text editing. Any text you place in here will be lost. If you need to comment on your tab, please use the "Tab Notes" section located below.