Number 1 TAB

(/) Slide Up  (\) Slide Down  (h) Hammer On  (p) Pull Off  (b) Bend (r) Release (v) Vibrato


E|-------------------------------------------------------------------------
B|-------------------------------------------------------------------------
G|--8-8-8-8-8-8--6-6-6-6-6-6--3-3-3-3-3-3--6-6-6-6-6-6---------------------
D|--9-9-9-9-9-9--7-7-7-7-7-7--4-4-4-4-4-4--7-7-7-7-7-7---------------------
A|--9-9-9-9-9-9--7-7-7-7-7-7--4-4-4-4-4-4--7-7-7-7-7-7---------------------
E|-------------------------------------------------------------------------



E|-------------------------------------------------------------------------
B|-------------------------------------------------------------------------
G|---8-9-11-9-8-9-8---------8-9-11-9-8-9-8---------------------------------
D|--9--------------9-7-9---9--------------9-7-9----------------------------
A|---------------------------------------------9---------------------------
E|-------------------------------------------------------------------------



E|-------------------------------------------------------------------------
B|--1-1-1-1-1-1--3-3-3-3-3-3-----------------------------------------------
G|--2-2-2-2-2-2--4-4-4-4-4-4-----------------------------------------------
D|--3-3-3-3-3-3--5-5-5-5-5-5-----------------------------------------------
A|--3-3-3-3-3-3--5-5-5-5-5-5-----------------------------------------------
E|-------------------------------------------------------------------------



E|------------------------------------------------------------------------------
B|---------------------------------------------------10-8-----------------------
G|----------------------------------------------9-7-5---------------------------
D|-------0-5-7-----0-5-7-----0-5-7-----0-5-7--------------3-3-3-3-3-3-3-3-3-3---
A|--0-5-7-----0-5-7-----0-5-7-----0-5-7-------------------1-1-1-1-1-1-1-1-1-1---
E|--------------------------------------------------------1-1-1-1-1-1-1-1-1-1---



E|------------------------------------------------------------------------------
B|------------------------------------------------------------------------------
G|------------------------5*(b)-7-----------------------------------------------
D|--5-5-5-5-5-5-5-5-5-5--5*-----------------------------------------------------
A|--3-3-3-3-3-3-3-3-3-3---------------------------------------------------------
E|--3-3-3-3-3-3-3-3-3-3---------------------------------------------------------



E|----------------------------------------------8-7-5-12-10---------------------
B|------------------------------------------------------------------------------
G|-------0-5-7-----0-5-7-----0-5-7-----0-5-7------------------------------------
D|--0-5-7-----0-5-7-----0-5-7-----0-5-7---------------------3-3-3-3-3-3-3-3-3-3-
A|----------------------------------------------------------1-1-1-1-1-1-1-1-1-1-
E|----------------------------------------------------------1-1-1-1-1-1-1-1-1-1-



E|-------------------------------------------------------------------------
B|-----------------------5*(b)-7-------------------------------------------
G|----------------------5*-------------------------------------------------
D|--5-5-5-5-5-5-5-5-5-5----------------------------------------------------
A|--3-3-3-3-3-3-3-3-3-3----------------------------------------------------
E|--3-3-3-3-3-3-3-3-3-3----------------------------------------------------



E|--------------------------------------------------------------------------
B|--------------------------------------------------------------------------
G|-----0---0--0---0---0--0--------------------------------------------------
D|----0---0------0---0-----------REPEAT THROUGHOUT NEXT SECTIONS------------
A|---3---3---2--5---5---5---------------------------------------------------
E|--1---1---1--3---3---3----------------------------------------------------



E|-------------------------------------------------------------------------
B|-------------------------------------------------------------------------
G|--------7-9-10-------9-10-12--------10-12-14-14-12-10--------------------
D|--7-9-10------9-10-12-------10-12-14-----------------14-12-10------------
A|-------------------------------------------------------------14-12-10----
E|-------------------------------------------------------------------------



E|-------------------------------------------------------------------------
B|-------------------------------------------------------------------------
G|------------------10-12-14-12-10-12(b)14-12- X4 ---------------------
D|----------10-12-14-------------------------------------------------------
A|--10-12-14---------------------------------------------------------------
E|-------------------------------------------------------------------------



E|--12-8--8-12-8-10-8--8-12-8-10-8--8-12-8-10-8--8-12-8-10-8--8------------
B|------10-----------10-----------10-----------10-----------10-------------
G|-------------------------------------------------------------------------
D|-------------------------------------------------------------------------
A|-------------------------------------------------------------------------
E|-------------------------------------------------------------------------



E|--10-7-7-10-7-8-7-7-10-7-8-7--7-10-7-8-7-7-10-7-8-7-7--------------------
B|------8----------8----------8-----------8----------8---------------------
G|-------------------------------------------------------------------------
D|-------------------------------------------------------------------------
A|-------------------------------------------------------------------------
E|-------------------------------------------------------------------------



E|-------------------------------------------------------------------------
B|-------------------------------------------------------------------------
G|-------------------------------------------------------------------------
D|-------------------------------------------------------------------------
A|-------------------------------------------------------------------------
E|-------------------------------------------------------------------------



E|-------------------------------------------------------------------------
B|-------------------------------------------------------------------------
G|-------------------------------------------------------------------------
D|-------------------------------------------------------------------------
A|-------------------------------------------------------------------------
E|-------------------------------------------------------------------------



E|-------------------------------------------------------------------------
B|-------------------------------------------------------------------------
G|-------------------------------------------------------------------------
D|-------------------------------------------------------------------------
A|-------------------------------------------------------------------------
E|-------------------------------------------------------------------------



E|-----
B|-----
G|-----
D|-----
A|-----
E|-----



E|-----
B|-----
G|-----
D|-----
A|-----
E|-----



E|-----
B|-----
G|-----
D|-----
A|-----
E|-----
http://www.guitartabcreator.com
Guitar Tab Creator is intended to store guitar tab created through the tool. It currently does not support in-line text editing. Any text you place in here will be lost. If you need to comment on your tab, please use the "Tab Notes" section located below.