Fantastic Voyage

(/) Slide Up  (\) Slide Down  (h) Hammer On  (p) Pull Off  (b) Bend (r) Release (v) Vibrato

E|--------------------------------------------------------------------------------------------
B|-----------------------0-----------------------------------3--------3--------3-----3--------
G|--------0--2--0--0--2--0--2--0--7--7--------0--2--0--0--2-----0--4-----0--4-----4-----0--0--
D|--2--2-----2--0-----------2--0--------2--2-----2--0-----------------------------------------
A|--------------------------------------------------------------------------------------------
E|--------------------------------------------------------------------------------------------



E|--------------------------------------------------------------------------------------------3--
B|-----------------------0-----------------------------3--1/4-------------1/4--------------0-----
G|--------0--2--0--0--2--0--2--0--7--7--------0--2--0-------------7--7---------0--2--0--2--------
D|--2--2-----2--0-----------2--0--------2--2--------0----------2---------------------------------
A|-----------------------------------------------------------------------------------------------
E|-----------------------------------------------------------------------------------------------



E|----------------------------------------------------------------------------------------------
B|--------------------0--------3--3--------------------0-----------0--------0/5--5--5--3--0--3--
G|-----0--2--0--0--2--0--2--0-----------0--2--0--0--2--0--2--2--0-----2--4----------------------
D|--2-----2--0-----------2--0--------2-----2--0-----------2--2--0-------------------------------
A|----------------------------------------------------------------------------------------------
E|----------------------------------------------------------------------------------------------

Stave 1:

E|--0--0--0--3--5--3--5--3p5--5--5--|--------------------------------1--0--1--2--0--2--2--2--0--2--
B|--0--0--0--3--5--3--5----5--5--5--|--5--3--5--5--5--3--5--5--3--5--3-----------------------------
G|--0--0--0-----5-----5----5--5--5--|--4--2--------------------------------------------------------
D|----------------------------------|--------------------------------------------------------------
A|----------------------------------|--------------------------------------------------------------
E|----------------------------------|--------------------------------------------------------------

Stave 2:

E|--3--2--3--10--7--12--12--12--|-----------------------------------------------------------------
B|--5---------------12--12--12--|--------------------------------------------3--------3--------3--
G|------------------9-----------|--------2--0--0--7--7--------0--2--0--4--4--------4--------4-----
D|------------------------------|--2--5--2--0--0--------2--2-----2--0-----------5--------5--------
A|------------------------------|-----------0--0--------------------0-----------------------------
E|------------------------------|-----------------------------------------------------------------

Stave 3:

E|--------3--3--
B|-----3--3--3--
G|--4-----------
D|--------------
A|--------------
E|--------------

Stave 4:

E|----------------------------------------------------------------------3--3--|-----
B|-------------------3--3--------------------3--------3--------3-----3--3-----|-----
G|-------0--2--0--0--------------0--2-----4--------4--------4-----4-----2-----|--0--
D|----2-----2--0--0--------2--2-----2--5--------5--------5--------------------|--0--
A|-------------0--0-----------------------------------------------------------|--0--
E|----------------------------------------------------------------------------|-----

http://www.guitartabcreator.com
Guitar Tab Creator is intended to store guitar tab created through the tool. It currently does not support in-line text editing. Any text you place in here will be lost. If you need to comment on your tab, please use the "Tab Notes" section located below.