Dance to the Funk

(/) Slide Up  (\) Slide Down  (h) Hammer On  (p) Pull Off  (b) Bend (r) Release (v) Vibrato

Stave 1:

E|--------------|-----------------|--1--4--1-----1--4--1-----|--------------|--------------------
B|--------------|-----------------|-----------3--1--------3--|--3--5--------|--3--4--3--4--3--4--
G|--5--4--3--1--|-----5--4--3--1--|-----------4--1--------4--|--------1-----|--------------------
D|--------------|--3--------------|--------------------------|--------1--3--|--------------------
A|--------------|--3--------------|--------------------------|-----------3--|--------------------
E|--------------|-----------------|--------------------------|--------------|--------------------

Stave 2:

E|--------|--------------|---------------------------------------------------|-----------------
B|--------|--------------|---------------------------------------------------|-----------------
G|--1-----|--5--4--3--1--|------------------------------------------4--4-----|--3--1--3--1--3--
D|--1--3--|--------------|--3--1--3--1--3--6r6r1--3--1--3--1--3--1--------1--|--3-----3-----3--
A|-----3--|--------------|--3--1--3--1--3--6------3--1--3--1--3--1-----------|-----------------
E|--------|--------------|---------------------------------------------------|-----------------

Stave 3:

E|-----------------------------------------|--
B|--1--1--1-----3-----------------5--5-----|--
G|--1--------1--3--1--3--1--3--1--------1--|--
D|--------------3--------------------------|--
A|-----------------------------------------|--
E|-----------------------------------------|--

http://www.guitartabcreator.com
Guitar Tab Creator is intended to store guitar tab created through the tool. It currently does not support in-line text editing. Any text you place in here will be lost. If you need to comment on your tab, please use the "Tab Notes" section located below.