Close my eyes

(/) Slide Up  (\) Slide Down  (h) Hammer On  (p) Pull Off  (b) Bend (r) Release (v) Vibrato
E|--------------------------------------7--5--------
B|-----5-----5-----7-----7-----8-----8--------8--7--
G|--------------------------------------------------
D|--------------------------------------------------
A|--3-----3-----5-----5-----7-----7-----------------
E|--------------------------------------------------



E|--------------------------------------7--8--7--5--
B|-----5-----5-----7-----7-----8-----8--------------
G|--------------------------------------------------
D|--------------------------------------------------
A|--3-----3-----5-----5-----7-----7-----------------
E|--------------------------------------------------



E|--------------------------------------7--5--------
B|-----5-----5-----7-----7-----8-----8--------8--7--
G|--------------------------------------------------
D|--------------------------------------------------
A|--3-----3-----5-----5-----7-----7-----------------
E|--------------------------------------------------



E|--------------------------------------------------
B|-----5-----5-----7-----7-----0-----0-----1--0--2--
G|--------------------------------------------------
D|--------------------------------------------------
A|--3-----3-----5-----5-----0-----0-----0-----------
E|--------------------------------------------------



E|-----------------3-----------------------3--------
B|-----3-----3-----------3-----3-----3-----------3--
G|--------------------------------------------------
D|--------------------------------------------------
A|--3-----3-----3-----3-----2-----2-----2-----2-----
E|--------------------------------------------------



E|-------------------------------
B|------12------12-----10-----8--
G|-------------------------------
D|-------------------------------
A|--10------10------9------7-----
E|-------------------------------
http://www.guitartabcreator.com
Guitar Tab Creator is intended to store guitar tab created through the tool. It currently does not support in-line text editing. Any text you place in here will be lost. If you need to comment on your tab, please use the "Tab Notes" section located below.