Trees - Vers

(/) Slide Up  (\) Slide Down  (h) Hammer On  (p) Pull Off  (b) Bend (r) Release (v) Vibrato
E|--------------------------------------------------------------------
B|--------------------------------------------------------------------
G|--------------------------------7-----------------------------------
D|--------------------------4--5-----------------------------5--4-----
A|--7--7--7--7--6--7--7--7-----------3--3--3--3--2--3--3--3--------5--
E|--------------------------------------------------------------------



E|-------------------------------------------------------------
B|-------------------------------------------------------------
G|--------------------------------7----------------------------
D|--------------------------4--5-------------------------------
A|--7--7--7--7--6--7--7--7-----------3--3--3--3--2--3--3--3/5--
E|-------------------------------------------------------------



E|-----------------------------------------------------------------------------------
B|-----------------------------------------------------------------------------------
G|--------------------------------7--------------------------------------------------
D|--------------------------4--5-------------------------------------------8/9v--v--\
A|--7--7--7--7--6--7--7--7-----------3--3--3--3--2--3--3--3--5--5/7--7/10------------
E|-----------------------------------------------------------------------------------
http://www.guitartabcreator.com
Guitar Tab Creator is intended to store guitar tab created through the tool. It currently does not support in-line text editing. Any text you place in here will be lost. If you need to comment on your tab, please use the "Tab Notes" section located below.