Eve Flute Solo (Guitar 1)

(/) Slide Up  (\) Slide Down  (h) Hammer On  (p) Pull Off  (b) Bend (r) Release (v) Vibrato
E|--11------11--13--14--13------------------
B|------11------------------14------14------
G|------------------------------13------16--
D|------------------------------------------
A|------------------------------------------
E|------------------------------------------



E|--11------11--13--14--13----------------------
B|------11------------------14------14--17--19--
G|------------------------------13--------------
D|----------------------------------------------
A|----------------------------------------------
E|----------------------------------------------



E|------------------21--16--18--18--16------
B|--19------19--21----------------------16--
G|------18----------------------------------
D|------------------------------------------
A|------------------------------------------
E|------------------------------------------



E|--18------18--16--21--18--
B|------16------------------
G|--------------------------
D|--------------------------
A|--------------------------
E|--------------------------
http://www.guitartabcreator.com
Guitar Tab Creator is intended to store guitar tab created through the tool. It currently does not support in-line text editing. Any text you place in here will be lost. If you need to comment on your tab, please use the "Tab Notes" section located below.