dear you solo

(/) Slide Up  (\) Slide Down  (h) Hammer On  (p) Pull Off  (b) Bend (r) Release (v) Vibrato


E|-------------------------------------------------------------------------------------------------
B|----------14--14--16--14--------------------------------------14--13--14--11--14--14------14-----
G|--13--13------------------17--10--11----------------------13--------------------------15---------
D|--------------------------------------10--11--13--16--15-----------------------------------------
A|-------------------------------------------------------------------------------------------------
E|-------------------------------------------------------------------------------------------------



E|--------------------------------------------------------------------------------------------------
B|----------16--16------18--19--21--21--18--21--18--16--16------14----------16--16--19--18--16--18--
G|--17--18----------13--------------------------------------15------17--18--------------------------
D|--------------------------------------------------------------------------------------------------
A|--------------------------------------------------------------------------------------------------
E|--------------------------------------------------------------------------------------------------



E|----------18----------------------------------------------------------------------------------
B|--16--18------18--16------14--16--14--16--14------------------14--14--16--16--16--16--18--18--
G|----------------------15----------------------13--13--10--13----------------------------------
D|----------------------------------------------------------------------------------------------
A|----------------------------------------------------------------------------------------------
E|----------------------------------------------------------------------------------------------



E|--------------------------------------------------------------------------------------------------
B|----------------------14--14--16--16----------16--21--18----------------------14--14--16--19--18--
G|--13--13--10--11--13------------------17--18--------------13--13--10--11--13----------------------
D|--------------------------------------------------------------------------------------------------
A|--------------------------------------------------------------------------------------------------
E|--------------------------------------------------------------------------------------------------



E|--------------------------16--16--13--16--16--------------------------
B|--14--16--14--16--19--18----------------------14--16--16--14--16--14--
G|----------------------------------------------------------------------
D|----------------------------------------------------------------------
A|----------------------------------------------------------------------
E|----------------------------------------------------------------------
http://www.guitartabcreator.com
Guitar Tab Creator is intended to store guitar tab created through the tool. It currently does not support in-line text editing. Any text you place in here will be lost. If you need to comment on your tab, please use the "Tab Notes" section located below.