harmonic minor e

(/) Slide Up  (\) Slide Down  (h) Hammer On  (p) Pull Off  (b) Bend (r) Release (v) Vibrato


E|-----7-8-11------------------------------------8-7-8-11-12-11-8-7----8-7--------
B|------------7-10-8------------------------------------------------10-----10-8---
G|-------------------9-8----------------------------------------------------------
D|-----------------------7-10----9------------------------------------------------
A|----------------------------10---9-7-6------------------------------------------
E|-0-0-----------------------------------7-8-7------------------------------------



E|-11-8-7-11-12-14-15-14-12-15-14-11-7---8-7----8-11-8-7-----------------
B|-------------------------------------------10----------8-7-10-8-7------
G|------------------------------------------------------------------9----
D|-----------------------------------------------------------------------
A|-----------------------------------------------------------------------
E|-----------------------------------------------------------------------



E|-7-7-7-7-7-7-------11-11-11-------7-11-7-------7-11-7--------8-14-15-14-12----------------
B|-------------10-10----------7-7-7--------7-8-7--------7-8-10---------------12-16-13-------
G|------------------------------------------------------------------------------------11-14-
D|------------------------------------------------------------------------------------------
A|------------------------------------------------------------------------------------------
E|------------------------------------------------------------------------------------------



E|------------------12-11-8-11-10-7-12-11-8-10-11-14-15-14----15-14-12----------------
B|---------------------------------------------------------16----------13-12----------
G|-12------------------------------------------------------------------------14-12-11-
D|----14-13-14-14---------------------------------------------------------------------
A|------------------------------------------------------------------------------------
E|------------------------------------------------------------------------------------
http://www.guitartabcreator.com
Guitar Tab Creator is intended to store guitar tab created through the tool. It currently does not support in-line text editing. Any text you place in here will be lost. If you need to comment on your tab, please use the "Tab Notes" section located below.