Quantum Leap 1

(/) Slide Up  (\) Slide Down  (h) Hammer On  (p) Pull Off  (b) Bend (r) Release (v) Vibrato


e|---------------|-----------------|
B|---------------|-----------------|
G|-2-0-2-4-2-0-2-|-2-2-0-2-4-2-0-2-|
D|---------------|-----------------|
A|---------------|-----------------|
E|---------------|-----------------|

e|-5-5---55-5----------5-5---5-------|-------|
B|-----7------7-5-7-57-----7---7-5-7-|---5-7-|
G|-----------------------------------|-7-----|
D|-----------------------------------|-------|
A|-----------------------------------|-------|
E|-----------------------------------|-------|

e|-5-5---55-5-----------|-13----------------13-15-15-|
B|-----7------7-5-7-5-7-|----13-10-13-10-13----------|
G|----------------------|----------------------------|
D|----------------------|----------------------------|
A|----------------------|----------------------------|
E|----------------------|----------------------------|

e|-5-5---55-5-----------|-5-5---5-7---|
B|-----7------7-5-7-5-7-|-----7-----7-|
G|----------------------|-------------|
D|----------------------|-------------|
A|----------------------|-------------|
E|----------------------|-------------|

e|----10----10------10-10-|-----------------10-|
B|-10----10----10-8-------|---5-6-7-6-7-6-7----|
G|------------------------|-7------------------|
D|------------------------|--------------------|
A|------------------------|--------------------|
E|------------------------|--------------------|

e|----10--------------5---|----------8-8-7-|---------------|
B|-10----10-8-6-6-5-6-----|---6---8--------|-5-------------|
G|----------------------7-|-5---7----------|---7-5-4-------|
D|------------------------|----------------|---------7-5---|
A|------------------------|----------------|-------------5-|
E|------------------------|----------------|---------------|

e|----------8-8-7-|---------------------|
B|---6---8--------|-6-6-6-6-6-5-6-5---5-|
G|-5---7----------|-----------------7---|
D|----------------|---------------------|
A|----------------|---------------------|
E|----------------|---------------------|

e|-----------------|-5-5---55-5-----------|-5-5---5-7---|
B|-----------------|-----7------7-5-7-5-7-|-----7-----7-|
G|-2-0-2-4-2-0-2-2-|----------------------|-------------|
D|-----------------|----------------------|-------------|
A|-----------------|----------------------|-------------|
E|-----------------|----------------------|-------------|

e|----10----10------10-10-|-----------------10-|
B|-10----10----10-8-------|---5-6-7-6-7-6-7----|
G|------------------------|-7------------------|
D|------------------------|--------------------|
A|------------------------|--------------------|
E|------------------------|--------------------|

e|----10------------------|
B|-10----10-8-7-6-5-6-5---|
G|----------------------7-|
D|------------------------|
A|------------------------|
E|------------------------| http://www.guitartabcreator.com
Guitar Tab Creator is intended to store guitar tab created through the tool. It currently does not support in-line text editing. Any text you place in here will be lost. If you need to comment on your tab, please use the "Tab Notes" section located below.