Sidewalk Chalk

(/) Slide Up  (\) Slide Down  (h) Hammer On  (p) Pull Off  (b) Bend (r) Release (v) Vibrato

E|--------------------------------------------------------------------------------------------------
B|--------------------------------------------------------------------------------------------------
G|-----4-----4-----4-----4-----4-----4-----4-----4-----4-----4-----4-----4-----6-----6-----6-----4--
D|--------4-----------4-----------4-----------4-----------4-----------4-----------4-----------4-----
A|--6-----------6-----------7-----------7-----------6-----------6-----------4-----------4-----------
E|--------------------------------------------------------------------------------------------------



E|-----------------------------------------------------------------------------------------------------
B|-----------------------------------------------------------------------------------------4-----------
G|-----4-----4-----4-----4-----4-----4-----4-----4-----4-----4-----4-----4-----6-----6--------6--4-----
D|--------4-----------4-----------4-----------4-----------4-----------4-----------4--------------------
A|--6-----------6-----------7-----------7-----------6-----------6-----------4-----------4--------------
E|-----------------------------------------------------------------------------------------------------



E|--------------------------------------------------------------------------------------------------
B|--------------------------------------------------------------------------------------------------
G|-----4-----4-----4-----4-----4-----4-----4-----4-----4-----4-----4-----4-----6-----6-----6-----6--
D|--------6-----------6-----------4-----------4-----------6-----------6-----------4-----------4-----
A|--7-----------7-----------------------------------6-----------6-----------4-----------4-----------
E|--------------------------7-----------7-----------------------------------------------------------



E|-----------------------------------------------------------------------------------------------------------------
B|-----------------------------------------------------------------------------------------------------------------
G|-----4-----4-----4-----4-----4-----4-----4-----4-----4-----4-----4-----4-----6-----6-----6-----6-----------------
D|--------6-----------6-----------4-----------4-----------6-----------6-----------4-----------4--------------------
A|--7-----------7-----------------------------------6-----------6-----------4-----------4--------------------------
E|--------------------------7-----------7--------------------------------------------------------------------------
http://www.guitartabcreator.com
Guitar Tab Creator is intended to store guitar tab created through the tool. It currently does not support in-line text editing. Any text you place in here will be lost. If you need to comment on your tab, please use the "Tab Notes" section located below.