Demons of all mighty hell

(/) Slide Up  (\) Slide Down  (h) Hammer On  (p) Pull Off  (b) Bend (r) Release (v) Vibrato
E|---------------------7-7-7-7---------------------7-7-7-7-----------
B|---------------------7-7-7-7---------------------7-7-7-7-----------
G|-7-7-7-7-7-7-7-7-7-7-7-----7-7-7-7-7-7-7-7-7-7-7-7-----7-7-7-7-7-7-
D|-9-9-9-9-9-9-9-9-9-9---------9-9-9-9-9-9-9-9-9-9---------9-9-9-9-9-
A|-9-9-9-9-9-9-9-9-9-9---------9-9-9-9-9-9-9-9-9-9---------9-9-9-9-9-
E|-7-7-7-7-7-7-7-7-7-7---------7-7-7-7-7-7-7-7-7-7-------7-7-7-7-7-7-



E|---------------------6-6-6-6---------------------6-6-6-6-----------
B|---6---6---6---6---6-6-6-6-6---6---6---6---6---6-6-6-6-6---6---6---
G|-6-6-6-6-6-6-6-6-6-6-6-----6-6-6-6-6-6-6-6-6-6-6-6-----6-6-6-6-6-6-
D|-8-8-8-8-8-8-8-8-8-8---------8-8-8-8-8-8-8-8-8-8---------8-8-8-8-8-
A|-8-8-8-8-8-8-8-8-8-8---------8-8-8-8-8-8-8-8-8-8---------8-8-8-8-8-
E|-6-6-6-6-6-6-6-6-6-6---------6-6-6-6-6-6-6-6-6-6---------6-6-6-6-6-



E|---------------------3-3-3-3---------------------3-3-3-3-----------
B|---------------------3-3-3-3---------------------3-3-3-3-----------
G|-3-3-3-3-3-3-3-3-3-3-3-----3-3-3-3-3-3-3-3-3-3-3-3-----3-3-3-3-3-3-
D|-5-5-5-5-5-5-5-5-5-5---------5-5-5-5-5-5-5-5-5-5---------5-5-5-5-5-
A|-5-5-5-5-5-5-5-5-5-5---------5-5-5-5-5-5-5-5-5-5---------5-5-5-5-5-
E|-3-3-3-3-3-3-3-3-3-3---------3-3-3-3-3-3-3-3-3-3---------3-3-3-3-3-



E|---------------------2-2-2-2---------------------2-2-2-2-----------
B|---------------------2-2-2-2---------------------2-2-2-2-----------
G|-2-2-2-2-2-2-2-2-2-2-2-----2-2-2-2-2-2-2-2-2-2-2-2---2---2-2-2-2-2-
D|-4-4-4-4-4-4-4-4-4-4---------4-4-4-4-4-4-4-4-4-4---------4-4-4-4-4-
A|-4-4-4-4-4-4-4-4-4-4---------4-4-4-4-4-4-4-4-4-4---------4-4-4-4-4-
E|-2-2-2-2-2-2-2-2-2-2---------2-2-2-2-2-2-2-2-2-2---------2-2-2-2-2-
http://www.guitartabcreator.com
Guitar Tab Creator is intended to store guitar tab created through the tool. It currently does not support in-line text editing. Any text you place in here will be lost. If you need to comment on your tab, please use the "Tab Notes" section located below.