The Dark Underworld

(/) Slide Up  (\) Slide Down  (h) Hammer On  (p) Pull Off  (b) Bend (r) Release (v) Vibrato
E|-------------------------------------------------------------------------------------
B|-------------------------------------------------------------------------------------
G|--0----------------------------------------------------------------------------------
D|--2----------------------------------------------------------------------------------
A|--2----------8--8--8--8--7--7--7--7--------------------------------------7--7--7--7--
E|--0----------------------------------8--8--8--8--7--7--7--7--8--8--8--8--------------



E|-----------------------------------------------------------------------------------------------------------------------
B|-----------------------------------------------------------------------------------------------------------------------
G|-----------------------------------------------------------------------------------------------------------------------
D|-----------------------------------------------------------------------------------------------------------------------
A|--7--8--------------------7--8------------6--7-----------5--6--------------------7--8--6--7--7--8--6--7--
E|--------0--0--0--0--0--0--------0--0--0---------0--0--0--------0--0--0--0--0--0--------------------------
http://www.guitartabcreator.com
Guitar Tab Creator is intended to store guitar tab created through the tool. It currently does not support in-line text editing. Any text you place in here will be lost. If you need to comment on your tab, please use the "Tab Notes" section located below.