T.H.M. Bass tab

(/) Slide Up  (\) Slide Down  (h) Hammer On  (p) Pull Off  (b) Bend (r) Release (v) Vibrato
E|--------------------------------------------------------------
B|--------------------------------------------------------------
G|--------------------------------------------------------------
D|--------------------------------------------------------------
A|--7--7--7-----7-----------------2--2--2-----2--2--2--2-----2--
E|-----------7-----3--3--3--0--3-----------3--------------3-----



E|--------------------------------------------------------------------------------------
B|--------------------------------------------------------------------------------------
G|--------------------------------------------------------------------------------------
D|--------------------------------------------------------------------------------------
A|--9--9--9--9-----9--7--7--7--7-----7--12--12--12--12------12--12--12--12--12------12--
E|--------------9-----------------7---------------------12----------------------12------



E|--------------------------------------------------------------
B|--------------------------------------------------------------
G|--------------------------------------------------------------
D|--------------------------------------------------------------
A|--7--7--7-----7-----------------2--2--2-----2--2--2--2-----2--
E|-----------7-----2--2--2--0--2-----------2--------------2-----
http://www.guitartabcreator.com
Guitar Tab Creator is intended to store guitar tab created through the tool. It currently does not support in-line text editing. Any text you place in here will be lost. If you need to comment on your tab, please use the "Tab Notes" section located below.