Little Kids Bass Tab

(/) Slide Up  (\) Slide Down  (h) Hammer On  (p) Pull Off  (b) Bend (r) Release (v) Vibrato

E|--------------------------------------------------------------------------------------------------
B|--------------------------------------------------------------------------------------------------
G|--------------------4--4--7--7--6--6--------------------------------7--7--9--9--------------------
D|--------4--4--7--7--------------------7--7--6--6--------6--6--9--9--------------9--9--7--7--6--6--
A|--5--5--------------------------------------------7--7--------------------------------------------
E|--------------------------------------------------------------------------------------------------



E|-----------------------------------------
B|-----------------------------------------
G|-----------------------------------------
D|-----4--7--------------6--9--------------
A|--5--------------7--7--------------9-----
E|-----------5--5--------------7--7--------



E|--------------------------------
B|--------------------------------
G|--------------------------------
D|--------------------------------
A|--7--7--7--7--7--5--5--5--5--5--
E|--------------------------------



E|--------------------------------------------------------------------------------------------------
B|--------------------------------------------------------------------------------------------------
G|--------------------4--4--7--7--6--6--------------------------------------9--9--------------------
D|--------4--4--7--7--------------------7--7--6--6--------------7--7--9--9--------9--9--7--7--6--6--
A|--5--5--------------------------------------------7--7--9--9--------------------------------------
E|--------------------------------------------------------------------------------------------------
http://www.guitartabcreator.com
Guitar Tab Creator is intended to store guitar tab created through the tool. It currently does not support in-line text editing. Any text you place in here will be lost. If you need to comment on your tab, please use the "Tab Notes" section located below.