Empty (Allbrook/Avery)

(/) Slide Up  (\) Slide Down  (h) Hammer On  (p) Pull Off  (b) Bend (r) Release (v) Vibrato

E|------------------------------------------------------------
B|------------------------------------------------------------
G|------------------------------------------------------------
D|------------------------------------------------------------
A|------------------------------5--5--5--5--7--5--4--5--4--2--
E|--3/5--5--5--5--3/5--5--5--5--------------------------------



E|---------------------------------------------------------------------
B|---------------------------------------------------------------------
G|---------------------------------------------------------------------
D|---------------------------------------------------------------------
A|---------------7--7--7--5--5---------------------7--7--7-------------
E|--0--0--3/5/7-----------------5--5--0--0--3/5/7-----------5--4--2/5--



E|------------------------------------
B|------------------------------------
G|------------------------------------
D|------------------------------------
A|---------------7--7--7--7--7--------
E|--0--0--3/5/7-----------------5--5--
http://www.guitartabcreator.com
Guitar Tab Creator is intended to store guitar tab created through the tool. It currently does not support in-line text editing. Any text you place in here will be lost. If you need to comment on your tab, please use the "Tab Notes" section located below.