Basement Scene Bass Tab

(/) Slide Up  (\) Slide Down  (h) Hammer On  (p) Pull Off  (b) Bend (r) Release (v) Vibrato


E|--------------------------------------------------------------
B|--------------------------------------------------------------
G|--------------------------------------------------------------
D|--------------------------------------------------------------
A|--1--1--1--1--3--0--1--1--1--1--3--0--1--1--1--1--3--0--------
E|--------------------------------------------------------3-----



E|--------------------------
B|--------------------------
G|--------------------------
D|--------3--0--------3--0--
A|--1--3--------1--3--------
E|--------------------------



E|-----------------------------------------------------------
B|-----------------------------------------------------------
G|-----------------------------------------------------------
D|--2--2--2--0-----------------------------------------------
A|--------------4--4--4--2--0--2-----------------------------
E|--------------------------------3--3--3--3--5--5--5--5-----



E|--------------------------------------------------------------------------------
B|--------------------------------------------------------------------------------
G|--------------------------------------------------------------------------------
D|--2--2--2--0--------------------------------------------------------------------
A|--------------4--4--4--2--0--2--------------------------------------------------
E|--------------------------------5--5--5--5--7--7--7--7--5--5--5--5--7--7--7--7--
http://www.guitartabcreator.com
Guitar Tab Creator is intended to store guitar tab created through the tool. It currently does not support in-line text editing. Any text you place in here will be lost. If you need to comment on your tab, please use the "Tab Notes" section located below.