Back to the Middle Bass Tab

(/) Slide Up  (\) Slide Down  (h) Hammer On  (p) Pull Off  (b) Bend (r) Release (v) Vibrato


E|-----------------------------------------
B|-----------------------------------------
G|-----------------------------------------
D|--0--0--2--4-----------------------------
A|--------------0--0--2--4-----------------
E|--------------------------0--0--0--0--0--



E|-----------------------------------------
B|-----------------------------------------
G|-----------------------------------------
D|-----------------------------------------
A|--5--5--7--9-----------------------------
E|--------------5--5--7--9--0--0--0--0--0--



E|-----------------------------------------
B|-----------------------------------------
G|-----------------------------------------
D|--9--9--7--------------7--9--7--7--7--7--
A|-----------9--7--7--9--------------------
E|-----------------------------------------



E|--------------------------------------------------------------------------------------------
B|--------------------------------------------------------------------------------------------
G|--------------------------------------------------------------------------------------------
D|--------------------------------------------------------------------------------------------
A|--------------------------------------7--7--9--9--9--9--9--9--9--9--7--7--7--7--------------
E|--7--7--7--7--7--7--7--7--5--5--5--5--------------------------------------------9--9--9--9--



E|--------------------------------------------------------------------------------------------
B|--------------------------------------------------------------------------------------------
G|--------------------------------------------------------------------------------------------
D|--------------------------------------2--2--4--4--4--4--4--4--4--4--2--2--2--2--------------
A|--2--2--2--2--2--2--2--2--0--0--0--0--------------------------------------------4--4--4--4--
E|--------------------------------------------------------------------------------------------
http://www.guitartabcreator.com
Guitar Tab Creator is intended to store guitar tab created through the tool. It currently does not support in-line text editing. Any text you place in here will be lost. If you need to comment on your tab, please use the "Tab Notes" section located below.