Tree Breaker.. Drop d

(/) Slide Up  (\) Slide Down  (h) Hammer On  (p) Pull Off  (b) Bend (r) Release (v) Vibrato


E|---------------------------------------------------------------------------------------------------
B|---------------------------------------------------------------------------------------------------
G|---------------------------------------------------------------------------------------------------
D|------------------------------------8--7-----------------------------------------------------------
A|--0--0--3--0--0--------6--5---------6--5-----5--6-----------------------3--5--3--------------------
E|--0--0--3--0--0--------6--5------0--------0--5--6--------0--3--0--3--5-----------5--3--------------



E|----------------------------------------------------------------------------------------------------
B|----------------------------------------------------------------------------------------------------
G|----------------------------------------------------------------------------------------------------
D|-----------------------------3-------------------------3---------------------5--3-------------------
A|-----------------3--5--3-----------------3--5----3--5-----5----3--5----3--5--------5----------------
E|--0--3--0--3--5-----------5-----------0-------------------------------------------------------------



E|--------------------------------------------------
B|--------------------------------------------------
G|--------------------------------------------------
D|-----5--7-----5--7-----10--7--------------12--10--
A|-----3--5-----3--5-----8---5--------------10--8---
E|--0--------0--------0-----------------------------
http://www.guitartabcreator.com
Guitar Tab Creator is intended to store guitar tab created through the tool. It currently does not support in-line text editing. Any text you place in here will be lost. If you need to comment on your tab, please use the "Tab Notes" section located below.