Time

(/) Slide Up  (\) Slide Down  (h) Hammer On  (p) Pull Off  (b) Bend (r) Release (v) Vibrato

E|-----0-----0--0--------------------------------------------------------------------4--7--0--
B|-----0-----0--0----------------------------------------3-----5-----3---------3-----5--7--0--
G|-----------------2-------------------------------2--2--2--2--2--2--2---------2--2--4--7--1--
D|--2-----2--------2-----12-----11-----9-----7-----2--2--2--2--2--2--2--2------0--2--6--7--2--
A|--2-----2--------0--0------0------0-----0-----4--0--0-----------------2---------0--4--9--2--
E|--0-------------------------------------------2-----------------------0---------------7--0--



E|------------------------------------------------5--------------------9----b9---------------------
B|------------------------------------5--5--7--5-----7--7-------------------------10--10--9--9-----
G|-----4b--6----4b--6--4-----------6-------------------------4b6----9------------------------------
D|--4---------------------4b4----------------------------------------------------------------------
A|-------------------------------------------------------------------------------------------------
E|-------------------------------------------------------------------------------------------------



E|----------------------------------------17-------------------------------------------------------
B|--9-----------------------14--17----17------17--17--17--17--14--------------------15--15--14-----
G|-----9--11--11--------14------------------------------------------16--14------16-----------------
D|------------------16-----------------------------------------------------------------------------
A|-------------------------------------------------------------------------------------------------
E|-------------------------------------------------------------------------------------------------



E|------------------17--17----------------------------------------19--19--19--19------16----------
B|--------------14----------19----17--17--------------------------------------------------17------
G|--14------------------------------------16--14--16--14--18----------------------------------16--
D|------16----------------------------------------------------------------------------------------
A|------------------------------------------------------------------------------------------------
E|------------------------------------------------------------------------------------------------



E|-------------------------------------------------------------------------------------------------
B|--17--19--19------17--19--17--17--14---------------7--10--12--10------9--10--9--5--5----7--9--9--
G|---------------------------------------------2--7------------------------------------------------
D|------------------------------------------4------------------------------------------------------
A|-------------------------------------------------------------------------------------------------
E|-------------------------------------------------------------------------------------------------



E|------------------------------------------------------------------------------------
B|--7--5--7------5--2--5--2-----------------------------------------------------------
G|-------------------------------6----7--4--2--4--2--6------2--4--2-------4-----------
D|---------------------------------------------------------------------6-----6--4--2--
A|------------------------------------------------------------------------------------
E|------------------------------------------------------------------------------------
http://www.guitartabcreator.com
Guitar Tab Creator is intended to store guitar tab created through the tool. It currently does not support in-line text editing. Any text you place in here will be lost. If you need to comment on your tab, please use the "Tab Notes" section located below.