Suicide Note.. Drop D

(/) Slide Up  (\) Slide Down  (h) Hammer On  (p) Pull Off  (b) Bend (r) Release (v) Vibrato


E|-----------------------------------------------0-----------
B|-----------------------------------------------2--0--------
G|-----------------------------------------------0--0--------
D|-----3--5--3--2--3--2--------0--------0--------0--0--------
A|-----------------------0--1-----1--3-----------5--5--------
E|--0--------------------------------------------5--5--------



E|--------------------------------------------3-----------------------------------------2--
B|--------------------------------------------3-----------------------------------------3--
G|--------------------------------------------0-----------------------------------------2--
D|-----4--5--4--2--4--2--------0--------0--0--0-----------4--5--4--5--2-----4--5--4--2--0--
A|-----------------------0--2-----2--4-----------------------------------------------------
E|--0--------------------------------------3-----3--2--0-----------------0-----------------



E|--2-----2--2--
B|--3-----3--3--
G|--2-----2--2--
D|--0-----0--0--
A|--0-----0--0--
E|--0--3--3--2--
http://www.guitartabcreator.com
Guitar Tab Creator is intended to store guitar tab created through the tool. It currently does not support in-line text editing. Any text you place in here will be lost. If you need to comment on your tab, please use the "Tab Notes" section located below.