Slow Start... Drop D

(/) Slide Up  (\) Slide Down  (h) Hammer On  (p) Pull Off  (b) Bend (r) Release (v) Vibrato

E|--0--0--0--------0------------------------------------------------------------------------------------
B|--3--3-----3--------3---------------------------------------------------------------------------------
G|--2--2--------2--------2------------------------------------------------------------------------------
D|--0--0--------------------0----1----------------------------------------------------------------------
A|--0----------------------------1----1----1--1--------------------------6--5--------5--3---------------
E|--0----------------------------1----1----1--1--------------0--0--0--0--------0--0--------0--0--0------



E|------------------------------------------------------------------------------------------------------
B|------------------------------------------------------------------------------------------------------
G|------------------------------------------------------------------------------------------------------
D|------------------------------------------------------------------------------------------------------
A|-----------3--5--------------6--5--------5--3--------------3--5--------0--0--1--0--3--1--0--1--0------
E|--0--0--0--------0--0--0--0--------0--0--------0--0--3--5--------------0--0--1--0--3--1--0--1--0------



E|------------------------------------------------------------------------------------------------------
B|------------------------------------------------------------------------------------------------------
G|------------------------------------------------------------------------------------------------------
D|------------------------------------------------------------------------------------------------------
A|--------------------------------------------0--0--1--0--3--1--0--0------------------------------------
E|--0--0--0----0--0--0----0--0--0----0--0--0--0--0--1--0--3--1--0--0--3--3--3----3--3--3----1--1--1-----



E|--------------------------------------------------------------------------------
B|--------------------------------------------------------------------------------
G|--------------------------------------------------------------------------------
D|--------------------------------------------------------------------------------
A|-----------------------------------------------------------------5-----------3--
E|--0--0--12--14--12--0--12--0--15--14--12--10------0--0--0--3--5-----0--3--5-----
http://www.guitartabcreator.com
Guitar Tab Creator is intended to store guitar tab created through the tool. It currently does not support in-line text editing. Any text you place in here will be lost. If you need to comment on your tab, please use the "Tab Notes" section located below.