Simple man

(/) Slide Up  (\) Slide Down  (h) Hammer On  (p) Pull Off  (b) Bend (r) Release (v) Vibrato


E|------------------------------------------------------------------------------------------------3-----
B|--------------------1---------------------------------------------------1--------------1-----------1--
G|-----------0-----------0-----0----------------0----------------2-----------2-----2--------2-----------
D|--------------2-----------2----------0-----------0-----0----------2-----------2--------------2--------
A|--0--2--3--------3----------------------2-----------2-------0--------0--------------0-----------------
E|----------------------------------3--------3----------------------------------------------------------



E|-------------------------------------------------------------
B|----------------------------------------------------5--------
G|----------------------------------------------------5--4--2--
D|----------------------------------------------------5--5--2--
A|--0--2--3--7--5--3-------7--5--3--------------------3-----0--
E|--------------------3-------------5--0--3--0--3--5-----3-----
http://www.guitartabcreator.com
Guitar Tab Creator is intended to store guitar tab created through the tool. It currently does not support in-line text editing. Any text you place in here will be lost. If you need to comment on your tab, please use the "Tab Notes" section located below.