Original 1

(/) Slide Up  (\) Slide Down  (h) Hammer On  (p) Pull Off  (b) Bend (r) Release (v) Vibrato

E|---------------------------------------------------------------------------------------------------------
B|---------------------------------------------------------------------------------------------------------
G|---------------------------------------------------------------------------------------------------------
D|---------------------------------------------------------------------------------------------------------
A|------------------------------------------------------1-----1-----1--------1-----1-----1--1--------------
E|--3--0--3--0--3--0--0--3--0--3--0--3--3--6--5--3---------3-----3-----2--3-----3-----3--------1--2--3-----



E|--------------------------------------------------------------------------------------------------
B|--------------------------------------------------------------------------------------------------
G|--------------------------------------------------------------------------------------------------
D|--------------------------------------------------------------------------------------------------
A|--------------------------------------------------------------------------------------------------
E|--3--0--3--0--3--0--0--6--0--6--0--6--6--0--6--0--5--0--5--0--5--0--0--8--0--8--0--8--8--0--8--0--



E|---------------
B|---------------
G|---------------
D|---------------
A|--5--8--7--10--
E|--3--6--5--8---
http://www.guitartabcreator.com
Guitar Tab Creator is intended to store guitar tab created through the tool. It currently does not support in-line text editing. Any text you place in here will be lost. If you need to comment on your tab, please use the "Tab Notes" section located below.