Hope of Man / Phrygian

(/) Slide Up  (\) Slide Down  (h) Hammer On  (p) Pull Off  (b) Bend (r) Release (v) Vibrato
E|-----------------------------------------------------------------------------------------------------
B|-----------------------------------------------------------------------------------------------------
G|-------------------------------------------------------------------5---------------7-----------------
D|----------------------------------------------------------------5-----5---------7-----7--------------
A|-------------2----------------2----------2----------------2--3---------------5-----------------------
E|--0----0--0--0----0--0--0--0--0----0--0--0----0--0--0--0--0------------------------------------------



E|------------------------------------------------------------------------------------------------------
B|------------------------------------------------------------------------------------------------------
G|--------------------------------------------5-------------------7-------------------------------------
D|-----------------------------------------5-----5-------------7-----7----------------------------------
A|--------2--------2-----2--------2-----3-------------------5-----------2--5--9--2----------------------
E|--0--0--0--0--0--0--0--0--0--0--0--0----------------------------------0--3--7--0----------------------



E|-----------------------------------------------------------
B|-----------------------------------------------------------
G|-----------------------------------------------------------
D|-----------------------------------------------------------
A|-----------------------------------------------------------
E|--0--0--0--0----0--0--0--0----0--0--0--0----0--0--0--0--1--
http://www.guitartabcreator.com
Guitar Tab Creator is intended to store guitar tab created through the tool. It currently does not support in-line text editing. Any text you place in here will be lost. If you need to comment on your tab, please use the "Tab Notes" section located below.