Drop G-Orig 1

(/) Slide Up  (\) Slide Down  (h) Hammer On  (p) Pull Off  (b) Bend (r) Release (v) Vibrato
E|-----------------------------------------------------------------
B|-----------------------------------------------------------------
G|-----------------------------------------------------------------
D|--------4--3--------------4--3-----------12--12--12--12--12--12--
A|-----------------------------------------------------------------
E|--1--1--------1--1--1--1--------1--1--0--12--12--12--12--12--12--



E|--------------------------------------------------------
B|--------------------------------------------------------
G|--------------------------------------------------8--5--
D|--------------------------------------------------6--3--
A|--------------------------------------------------6--3--
E|--3--0--3--0--3--4--5--3--0--3--0--3--0--3--4--5--6--3--



E|---------------------------------------------------------------------------------------------------
B|---------------------------------------------------------------------------------------------------
G|---------------------------------------------------------------------------------------------------
D|---------------------------------------------------------------------------------------------------
A|---------------5--3--5--3--5--3--5--5--5--3--5--3--5--3--6--5--6--5--6--5--6--6--6--5--6--5--6--5--
E|--7--10--5--8--5--3--5--3--5--3--5--5--5--3--5--3--5--3--6--5--6--5--6--5--6--6--6--5--6--5--6--5--



E|--------------------------------------------------
B|--------------------------------------------------
G|--------------------------------------------------
D|--8--8--8-----------8--8--8-----------8--8--------
A|--------------------------------------------------
E|-----------7--7--7-----------7--7--7--------7--7--
http://www.guitartabcreator.com
Guitar Tab Creator is intended to store guitar tab created through the tool. It currently does not support in-line text editing. Any text you place in here will be lost. If you need to comment on your tab, please use the "Tab Notes" section located below.