Dino Strut

(/) Slide Up  (\) Slide Down  (h) Hammer On  (p) Pull Off  (b) Bend (r) Release (v) Vibrato


E|-----------------------------------------
B|-----------------------------------------
G|--------------0-----3--------------------
D|--------0--3-----3--------------2--4--2--
A|--1--1-----------------------3-----------
E|-----------------------4--4--------------



E|--------------------------------------
B|--------------------------------------
G|--------------0-----3-----------------
D|--------0--3-----3--------------1-----
A|--1--1-----------------------3--------
E|-----------------------4--4-----------



E|-----------------------------------------
B|-----------------------------------------
G|--------------0-----3--------------------
D|--------0--3-----3--------------1--4--1--
A|--1--1-----------------------3-----------
E|-----------------------4--4--------------



E|--8--6--3--1--3--1--3--5--8--0--0-----------0--3--5--6--5--3--10--10--10--8--6--3--4--
B|-----------------------------------1--5--5--------------------------------------------
G|--------------------------------------------------------------------------------------
D|--------------------------------------------------------------------------------------
A|--------------------------------------------------------------------------------------
E|--------------------------------------------------------------------------------------



E|-----------------------------------------
B|-----------------------------------------
G|--------------0-----3--------------------
D|--------0--3-----3--------------1--4--1--
A|--1--1-----------------------3-----------
E|-----------------------4--4--------------
http://www.guitartabcreator.com
Guitar Tab Creator is intended to store guitar tab created through the tool. It currently does not support in-line text editing. Any text you place in here will be lost. If you need to comment on your tab, please use the "Tab Notes" section located below.