Bad Parts - Mixtapes

(/) Slide Up  (\) Slide Down  (h) Hammer On  (p) Pull Off  (b) Bend (r) Release (v) Vibrato
E|-------------------------------------------------------------
B|-------------------------------------------------------------
G|-------------------------------------------------------------
D|-----------------6-------------6-------------1---------------
A|-------0-0-0-0-7---7-0-0-0-0-7---7-0-0-0-0-2---2-0-0-0-0-----
E|-0-0-0---------------------------------------------------0-0-



E|---------------------------------------
B|---------------------------------------
G|---------------------------------------
D|---------------------------------------
A|-7\0-0-0-0-0-0-0-0-0-0-0-0-0-0-0-0-----
E|-----------------------------------0-0-



E|-------------------------------------------------------------------------------------
B|-------------------------------------------------------------------------------------
G|-------------------------------------------------------------------------------------
D|-------------------------------------------------------------------------------------
A|-2-2-0-0-0-0-----------------2-2-0-0-0-0---------2-2-2-2-2-2-0-0-0-0-----------------
E|-------------0-0-0-0-0-0-0-0-------------0-0-0-0---------------------0-0-0-0-0-0-0-0-



E|----------------------------------------------------------------------------------------------------------
B|----------------------------------------------------------------------------------------------------------
G|----------------------------------------------------------------------------------------------------------
D|----------------------------------------------------------------------------------------------------------
A|--2--2--2--2--2--2--2--2--2--2--2--2--2--2--2--2--9--9--9--9--9--9--9--9--14--14--14--14--14--14--14--14--
E|----------------------------------------------------------------------------------------------------------



E|--------------------------------------------------------------------------------------------
B|--------------------------------------------------------------------------------------------
G|--------------------------------------------------------------------------------------------
D|--------------------------------------------------------------------------------------------
A|--4--4--2--2--2--2--7--7--0--0--0--0--4--4--2--2--2--2--7--7--0--0--0--0--4--4--2--2--2--2--
E|--------------------------------------------------------------------------------------------



E|-------------
B|-------------
G|-------------
D|-------------
A|-4-4-2-2-2-2-
E|-------------



E|-------------------------
B|-------------------------
G|-------------------------
D|-------------------------
A|-7-7-0-0-0-0-4-4-2-2-2-2-
E|-------------------------



E|-----------------------------------------------------------------
B|-----------------------------------------------------------------
G|-----------------------------------------------------------------
D|-----------------------------------------------------------------
A|-4-4-4-4-4-4-4-4-2-2-2-2-2-2-2-2-----------------0-0-0-0-0-0-0-0-
E|---------------------------------2-2-2-2-2-2-2-2-----------------



E|-------------------------------------------------------------------------
B|-------------------------------------------------------------------------
G|-------------------------------------------------------------------------
D|-------------------------------------------------------------------------
A|-4-4-4-4-4-4-4-4-2-2-2-2-2-2-2-2-9-9-9-9-9-9-9-9-12-12-12-12-12-12-12-12-
E|-------------------------------------------------------------------------



E|-----------------------------------------------
B|-----------------------------------------------
G|-----------------------------------------------
D|-----------------------------------------------
A|-4-2-4-2-4-2-0-0-0-0-0-0-0-0-0-0-0-0-0-0-0-0---
E|---------------------------------------------0r
http://www.guitartabcreator.com
Guitar Tab Creator is intended to store guitar tab created through the tool. It currently does not support in-line text editing. Any text you place in here will be lost. If you need to comment on your tab, please use the "Tab Notes" section located below.