The Stand

(/) Slide Up  (\) Slide Down  (h) Hammer On  (p) Pull Off  (b) Bend (r) Release (v) Vibrato


E|----------------------------------------|---------------------------------------------------
B|------------9--------10--------9--------|------------9--------10--10h12--10--9--9h10p9------
G|--11------------------------------------|--11-------------------------------------------11--
D|------9h11-----9h11------9h11-----9h11--|------9h11-----9h11--------------------------------
A|----------------------------------------|---------------------------------------------------
E|----------------------------------------|---------------------------------------------------



E|--10--9---------12--|--12h14--12--9--10--9---------12--|-----------
B|---------10--9------|-----------------------10--9------|--10p9-----
G|--------------------|----------------------------------|--------9--
D|--------------------|----------------------------------|-----------
A|--------------------|----------------------------------|-----------
E|--------------------|----------------------------------|-----------
http://www.guitartabcreator.com
Guitar Tab Creator is intended to store guitar tab created through the tool. It currently does not support in-line text editing. Any text you place in here will be lost. If you need to comment on your tab, please use the "Tab Notes" section located below.