Our God

(/) Slide Up  (\) Slide Down  (h) Hammer On  (p) Pull Off  (b) Bend (r) Release (v) Vibrato


E|--------------------|--------------------|--------------------|--------------------
B|--------------------|--13----13--13--13--|--12----12--12--12--|--------------------
G|--12----12--12--12--|--------------------|--------------------|--14----14--14--14--
D|--------------------|--------------------|--------------------|--------------------
A|--------------------|--------------------|--------------------|--------------------
E|--------------------|--------------------|--------------------|--------------------



E|------------------|------------------|-----------------|--------------
B|------13--12------|------13--12------|--12h13--12------|--13--12--15--
G|--12--------------|--12--------------|-------------14--|--------------
D|------------------|------------------|-----------------|--------------
A|------------------|------------------|-----------------|--------------
E|------------------|------------------|-----------------|--------------
http://www.guitartabcreator.com
Guitar Tab Creator is intended to store guitar tab created through the tool. It currently does not support in-line text editing. Any text you place in here will be lost. If you need to comment on your tab, please use the "Tab Notes" section located below.