One Way

(/) Slide Up  (\) Slide Down  (h) Hammer On  (p) Pull Off  (b) Bend (r) Release (v) Vibrato


E|-------|------|------|-----
B|-------|------|------|-----
G|----8--|--13--|--11--|--9--
D|----0--|--0---|--0---|--0--
A|----6--|--11--|--9---|--7--
E|-------|------|------|-----



E|----------------|----------------------------
B|----------------|----------------------------
G|----------------|----------------------------
D|--8h9--8--------|--8h9--8-----9/11--9--8--9--
A|----------9--7--|----------9-----------------
E|----------------|----------------------------
http://www.guitartabcreator.com
Guitar Tab Creator is intended to store guitar tab created through the tool. It currently does not support in-line text editing. Any text you place in here will be lost. If you need to comment on your tab, please use the "Tab Notes" section located below.