Mighty To Save

(/) Slide Up  (\) Slide Down  (h) Hammer On  (p) Pull Off  (b) Bend (r) Release (v) Vibrato


E|--------------------------|--------------------------|-----------------------------
B|------14----------14------|------14----------14------|------14----------14---------
G|----------14----------14--|----------14----------14--|----------14----------14-----
D|--------------------------|--------------------------|-----------------------------
A|--12----------12----------|--------------------------|-----------------------------
E|--------------------------|--12----------12----------|--14----------14-------------



E|--------------------------
B|------14----------14------
G|----------14----------14--
D|--------------------------
A|--11----------11----------
E|--------------------------



E|-----------------------------------
B|------14---------------------------
G|----------14-----------------------
D|-----------------------------------
A|--11----------11h12p11-------------
E|------------------------12--12/14--
http://www.guitartabcreator.com
Guitar Tab Creator is intended to store guitar tab created through the tool. It currently does not support in-line text editing. Any text you place in here will be lost. If you need to comment on your tab, please use the "Tab Notes" section located below.