Like A Lion

(/) Slide Up  (\) Slide Down  (h) Hammer On  (p) Pull Off  (b) Bend (r) Release (v) Vibrato

E|--10--10--7----|--10--10-------|-------------
B|---------------|----------7----|--7h8--8--8--
G|---------------|---------------|-------------
D|---------------|---------------|-------------
A|---------------|---------------|-------------
E|---------------|---------------|-------------



E|--0--------2--------3--------3--------|--0--------3--------0--------0--------
B|--3--------3--------3-----------3-----|--1--------3--------3-----------3-----
G|--0--------2--------0--------------0--|--2--------0--------0--------------0--
D|--2--------0--------0-----------------|--2--------0--------2-----------------
A|--2-----------------2-----------------|--0--------2--------3-----------------
E|--0-----------------3-----------------|-----------3--------------------------



E|--2--------0--------0--------|--2--------0--
B|--3--------3-----------3-----|--3--------3--
G|--2--------0--------------0--|--2--------0--
D|--0--------2-----------------|--0--------2--
A|-----------2-----------------|-----------3--
E|-----------0-----------------|--------------
http://www.guitartabcreator.com
Guitar Tab Creator is intended to store guitar tab created through the tool. It currently does not support in-line text editing. Any text you place in here will be lost. If you need to comment on your tab, please use the "Tab Notes" section located below.