I Will Follow

(/) Slide Up  (\) Slide Down  (h) Hammer On  (p) Pull Off  (b) Bend (r) Release (v) Vibrato


E|-------------|-------------|-------------
B|----8--7-----|----8--7-----|----8--------
G|----------9--|----------7--|----------7--
D|-------------|-------------|-------9-----
A|-------------|-------------|-------------
E|-------------|-------------|-------------



E|-----------------------------------------|---------------------------------------------------
B|--------------------10----------8--8--7--|--------------------10--------8--8--7--7h8--8--10--
G|--9--------7-----------------------------|--9--------7---------------------------------------
D|-----------------------------------------|---------------------------------------------------
A|-----------------------------------------|---------------------------------------------------
E|-----------------------------------------|---------------------------------------------------
http://www.guitartabcreator.com
Guitar Tab Creator is intended to store guitar tab created through the tool. It currently does not support in-line text editing. Any text you place in here will be lost. If you need to comment on your tab, please use the "Tab Notes" section located below.