Freedom Is Here

(/) Slide Up  (\) Slide Down  (h) Hammer On  (p) Pull Off  (b) Bend (r) Release (v) Vibrato


E|--5--7--10--3-----|--5--7--10--3--5--
B|---------------5--|------------------
G|------------------|------------------
D|------------------|------------------
A|------------------|------------------
E|------------------|------------------



E|-----------------|-----------------|-----------------|-----------------
B|-----8-----8-----|-----8-----8-----|-----7-----7-----|-----8-----8-----
G|-5-7---5-7---5-7-|---7-----7-----7-|---7-----7-----7-|-5-7---5-7---5-7-
D|-----------------|-5-----5-----5---|-7-----7-----7---|-----------------
A|-----------------|-----------------|-----------------|-----------------
E|-----------------|-----------------|-----------------|-----------------
http://www.guitartabcreator.com
Guitar Tab Creator is intended to store guitar tab created through the tool. It currently does not support in-line text editing. Any text you place in here will be lost. If you need to comment on your tab, please use the "Tab Notes" section located below.