Dry Bones

(/) Slide Up  (\) Slide Down  (h) Hammer On  (p) Pull Off  (b) Bend (r) Release (v) Vibrato


E|--6-----6-----6-----6-----|--5-----5-----5-----5-----
B|-----6-----6-----6-----6--|-----6-----6-----6-----6--
G|--------------------------|--------------------------
D|--------------------------|--------------------------
A|--------------------------|--------------------------
E|--------------------------|--------------------------



E|--13--15--------|--13--15--------|--13--15--13--
B|----------15----|----------13----|--------------
G|----------------|----------------|--------------
D|----------------|----------------|--------------
A|----------------|----------------|--------------
E|----------------|----------------|--------------



E|----------------------|----------------------|----------------------|----------------------
B|--11--11--11--13--11--|--16--16--15--13--11--|--10--11--10----------|--16--16--15--13--11--
G|----------------------|----------------------|--------------12--10--|----------------------
D|----------------------|----------------------|----------------------|----------------------
A|----------------------|----------------------|----------------------|----------------------
E|----------------------|----------------------|----------------------|----------------------



E|--------------------------------------------------|------------------
B|--10--11--10------10--11--10------10--11--10------|--16--15--13--11--
G|--------------10--------------10--------------10--|------------------
D|--------------------------------------------------|------------------
A|--------------------------------------------------|------------------
E|--------------------------------------------------|------------------



E|----------------------
B|------10--11--13--15--
G|--12------------------
D|----------------------
A|----------------------
E|----------------------



E|------------|------13----|------------------------------
B|------11----|--11--------|--10--11--10------------------
G|--10--------|------------|--------------12--10--10--12--
D|------------|------------|------------------------------
A|------------|------------|------------------------------
E|------------|------------|------------------------------
http://www.guitartabcreator.com
Guitar Tab Creator is intended to store guitar tab created through the tool. It currently does not support in-line text editing. Any text you place in here will be lost. If you need to comment on your tab, please use the "Tab Notes" section located below.